  0
SECTION
  2
HEADER
  9
$ACADVER
  1
AC1015
  9
$ACADMAINTVER
 70
     6
  9
$DWGCODEPAGE
  3
ANSI_1254
  9
$INSBASE
 10
0.0
 20
0.0
 30
0.0
  9
$EXTMIN
 10
0.0
 20
0.0
 30
0.0
  9
$EXTMAX
 10
279.4
 20
215.9
 30
0.0
  9
$LIMMIN
 10
0.0
 20
0.0
  9
$LIMMAX
 10
279.4
 20
215.9
  9
$ORTHOMODE
 70
     0
  9
$REGENMODE
 70
     1
  9
$FILLMODE
 70
     1
  9
$QTEXTMODE
 70
     0
  9
$MIRRTEXT
 70
     1
  9
$LTSCALE
 40
1.0
  9
$ATTMODE
 70
     1
  9
$TEXTSIZE
 40
3.5
  9
$TRACEWID
 40
1.0
  9
$TEXTSTYLE
  7
Standard
  9
$CLAYER
  8
0
  9
$CELTYPE
  6
ByLayer
  9
$CECOLOR
 62
   256
  9
$CELTSCALE
 40
1.0
  9
$DISPSILH
 70
     0
  9
$DIMSCALE
 40
1.0
  9
$DIMASZ
 40
3.5
  9
$DIMEXO
 40
1.0
  9
$DIMDLI
 40
3.75
  9
$DIMRND
 40
0.0
  9
$DIMDLE
 40
0.0
  9
$DIMEXE
 40
1.0
  9
$DIMTP
 40
0.0
  9
$DIMTM
 40
0.0
  9
$DIMTXT
 40
3.5
  9
$DIMCEN
 40
2.5
  9
$DIMTSZ
 40
0.0
  9
$DIMTOL
 70
     0
  9
$DIMLIM
 70
     0
  9
$DIMTIH
 70
     1
  9
$DIMTOH
 70
     1
  9
$DIMSE1
 70
     0
  9
$DIMSE2
 70
     0
  9
$DIMTAD
 70
     1
  9
$DIMZIN
 70
     0
  9
$DIMBLK
  1

  9
$DIMASO
 70
     1
  9
$DIMSHO
 70
     1
  9
$DIMPOST
  1

  9
$DIMAPOST
  1

  9
$DIMALT
 70
     0
  9
$DIMALTD
 70
     3
  9
$DIMALTF
 40
0.0393700787
  9
$DIMLFAC
 40
1.0
  9
$DIMTOFL
 70
     1
  9
$DIMTVP
 40
0.0
  9
$DIMTIX
 70
     0
  9
$DIMSOXD
 70
     0
  9
$DIMSAH
 70
     0
  9
$DIMBLK1
  1

  9
$DIMBLK2
  1

  9
$DIMSTYLE
  2
ISO-25
  9
$DIMCLRD
 70
     0
  9
$DIMCLRE
 70
     0
  9
$DIMCLRT
 70
     0
  9
$DIMTFAC
 40
1.0
  9
$DIMGAP
 40
1.524
  9
$DIMJUST
 70
     0
  9
$DIMSD1
 70
     0
  9
$DIMSD2
 70
     0
  9
$DIMTOLJ
 70
     0
  9
$DIMTZIN
 70
     0
  9
$DIMALTZ
 70
     0
  9
$DIMALTTZ
 70
     0
  9
$DIMUPT
 70
     0
  9
$DIMDEC
 70
     2
  9
$DIMTDEC
 70
     2
  9
$DIMALTU
 70
     2
  9
$DIMALTTD
 70
     3
  9
$DIMTXSTY
  7
Standard
  9
$DIMAUNIT
 70
     0
  9
$DIMADEC
 70
     2
  9
$DIMALTRND
 40
0.0
  9
$DIMAZIN
 70
     0
  9
$DIMDSEP
 70
    44
  9
$DIMATFIT
 70
     3
  9
$DIMFRAC
 70
     0
  9
$DIMLDRBLK
  1

  9
$DIMLUNIT
 70
     2
  9
$DIMLWD
 70
    -2
  9
$DIMLWE
 70
    -2
  9
$DIMTMOVE
 70
     0
  9
$LUNITS
 70
     2
  9
$LUPREC
 70
     2
  9
$SKETCHINC
 40
1.0
  9
$FILLETRAD
 40
10.0
  9
$AUNITS
 70
     0
  9
$AUPREC
 70
     2
  9
$MENU
  1
.
  9
$ELEVATION
 40
0.0
  9
$PELEVATION
 40
0.0
  9
$THICKNESS
 40
0.0
  9
$LIMCHECK
 70
     0
  9
$CHAMFERA
 40
0.0
  9
$CHAMFERB
 40
0.0
  9
$CHAMFERC
 40
0.0
  9
$CHAMFERD
 40
0.0
  9
$SKPOLY
 70
     0
  9
$TDCREATE
 40
2458985.63308103
  9
$TDUCREATE
 40
2458985.50808103
  9
$TDUPDATE
 40
2458985.633081377
  9
$TDUUPDATE
 40
2458985.508081377
  9
$TDINDWG
 40
0.0000000116
  9
$TDUSRTIMER
 40
0.0000000116
  9
$USRTIMER
 70
     1
  9
$ANGBASE
 50
0.0
  9
$ANGDIR
 70
     0
  9
$PDMODE
 70
     0
  9
$PDSIZE
 40
-1.0
  9
$PLINEWID
 40
0.0
  9
$SPLFRAME
 70
     0
  9
$SPLINETYPE
 70
     6
  9
$SPLINESEGS
 70
     8
  9
$HANDSEED
  5
CC
  9
$SURFTAB1
 70
     6
  9
$SURFTAB2
 70
     6
  9
$SURFTYPE
 70
     6
  9
$SURFU
 70
     6
  9
$SURFV
 70
     6
  9
$UCSBASE
  2

  9
$UCSNAME
  2

  9
$UCSORG
 10
0.0
 20
0.0
 30
0.0
  9
$UCSXDIR
 10
1.0
 20
0.0
 30
0.0
  9
$UCSYDIR
 10
0.0
 20
1.0
 30
0.0
  9
$UCSORTHOREF
  2

  9
$UCSORTHOVIEW
 70
     0
  9
$UCSORGTOP
 10
0.0
 20
0.0
 30
0.0
  9
$UCSORGBOTTOM
 10
0.0
 20
0.0
 30
0.0
  9
$UCSORGLEFT
 10
0.0
 20
0.0
 30
0.0
  9
$UCSORGRIGHT
 10
0.0
 20
0.0
 30
0.0
  9
$UCSORGFRONT
 10
0.0
 20
0.0
 30
0.0
  9
$UCSORGBACK
 10
0.0
 20
0.0
 30
0.0
  9
$PUCSBASE
  2

  9
$PUCSNAME
  2

  9
$PUCSORG
 10
0.0
 20
0.0
 30
0.0
  9
$PUCSXDIR
 10
1.0
 20
0.0
 30
0.0
  9
$PUCSYDIR
 10
0.0
 20
1.0
 30
0.0
  9
$PUCSORTHOREF
  2

  9
$PUCSORTHOVIEW
 70
     0
  9
$PUCSORGTOP
 10
0.0
 20
0.0
 30
0.0
  9
$PUCSORGBOTTOM
 10
0.0
 20
0.0
 30
0.0
  9
$PUCSORGLEFT
 10
0.0
 20
0.0
 30
0.0
  9
$PUCSORGRIGHT
 10
0.0
 20
0.0
 30
0.0
  9
$PUCSORGFRONT
 10
0.0
 20
0.0
 30
0.0
  9
$PUCSORGBACK
 10
0.0
 20
0.0
 30
0.0
  9
$USERI1
 70
     0
  9
$USERI2
 70
     0
  9
$USERI3
 70
     0
  9
$USERI4
 70
     0
  9
$USERI5
 70
     0
  9
$USERR1
 40
0.0
  9
$USERR2
 40
0.0
  9
$USERR3
 40
0.0
  9
$USERR4
 40
0.0
  9
$USERR5
 40
0.0
  9
$WORLDVIEW
 70
     1
  9
$SHADEDGE
 70
     3
  9
$SHADEDIF
 70
    70
  9
$TILEMODE
 70
     1
  9
$MAXACTVP
 70
    64
  9
$PINSBASE
 10
0.0
 20
0.0
 30
0.0
  9
$PLIMCHECK
 70
     0
  9
$PEXTMIN
 10
1.0000000000E+20
 20
1.0000000000E+20
 30
1.0000000000E+20
  9
$PEXTMAX
 10
-1.0000000000E+20
 20
-1.0000000000E+20
 30
-1.0000000000E+20
  9
$PLIMMIN
 10
0.0
 20
0.0
  9
$PLIMMAX
 10
420.0
 20
297.0
  9
$UNITMODE
 70
     0
  9
$VISRETAIN
 70
     1
  9
$PLINEGEN
 70
     0
  9
$PSLTSCALE
 70
     1
  9
$TREEDEPTH
 70
  3020
  9
$CMLSTYLE
  2
Standard
  9
$CMLJUST
 70
     0
  9
$CMLSCALE
 40
20.0
  9
$PROXYGRAPHICS
 70
     1
  9
$MEASUREMENT
 70
     1
  9
$CELWEIGHT
370
    -1
  9
$ENDCAPS
280
     0
  9
$JOINSTYLE
280
     0
  9
$LWDISPLAY
290
     1
  9
$INSUNITS
 70
     4
  9
$HYPERLINKBASE
  1

  9
$STYLESHEET
  1

  9
$XEDIT
290
     1
  9
$CEPSNTYPE
380
     0
  9
$PSTYLEMODE
290
     1
  9
$FINGERPRINTGUID
  2
{68697723-d510-4335-b6bc-05820b56d9ae}
  9
$VERSIONGUID
  2
{FAEB1C32-E019-11D5-929B-00C0DF256EC4}
  9
$EXTNAMES
290
     1
  9
$PSVPSCALE
 40
0.0
  9
$OLESTARTUP
290
     0
  0
ENDSEC
  0
SECTION
  2
CLASSES
  0
CLASS
  1
ACDBDICTIONARYWDFLT
  2
AcDbDictionaryWithDefault
  3
ObjectDBX Classes
 90
        0
280
     0
281
     0
  0
CLASS
  1
VISUALSTYLE
  2
AcDbVisualStyle
  3
ObjectDBX Classes
 90
     4095
280
     0
281
     0
  0
CLASS
  1
MATERIAL
  2
AcDbMaterial
  3
ObjectDBX Classes
 90
     1153
280
     0
281
     0
  0
CLASS
  1
SCALE
  2
AcDbScale
  3
ObjectDBX Classes
 90
     1153
280
     0
281
     0
  0
CLASS
  1
TABLESTYLE
  2
AcDbTableStyle
  3
ObjectDBX Classes
 90
     4095
280
     0
281
     0
  0
CLASS
  1
MLEADERSTYLE
  2
AcDbMLeaderStyle
  3
ACDB_MLEADERSTYLE_CLASS
 90
     4095
280
     0
281
     0
  0
CLASS
  1
SUN
  2
AcDbSun
  3
SCENEOE
 90
     1153
280
     0
281
     0
  0
CLASS
  1
ACDBPLACEHOLDER
  2
AcDbPlaceHolder
  3
ObjectDBX Classes
 90
        0
280
     0
281
     0
  0
CLASS
  1
LAYOUT
  2
AcDbLayout
  3
ObjectDBX Classes
 90
        0
280
     0
281
     0
  0
ENDSEC
  0
SECTION
  2
TABLES
  0
TABLE
  2
VPORT
  5
8
330
0
100
AcDbSymbolTable
 70
     1
  0
VPORT
  5
29
330
8
100
AcDbSymbolTableRecord
100
AcDbViewportTableRecord
  2
*Active
 70
     0
 10
0.0
 20
0.0
 11
1.0
 21
1.0
 12
139.7
 22
107.95
 13
0.0
 23
0.0
 14
10.0
 24
10.0
 15
10.0
 25
10.0
 16
0.0
 26
0.0
 36
1.0
 17
0.0
 27
0.0
 37
0.0
 40
215.9
 41
1.2941176471
 42
50.0
 43
0.0
 44
0.0
 50
0.0
 51
0.0
 71
     0
 72
  2000
 73
     1
 74
     3
 75
     0
 76
     0
 77
     0
 78
     0
281
     0
 65
     1
110
0.0
120
0.0
130
0.0
111
1.0
121
0.0
131
0.0
112
0.0
122
1.0
132
0.0
 79
     0
146
0.0
  0
ENDTAB
  0
TABLE
  2
LTYPE
  5
5
330
0
100
AcDbSymbolTable
 70
     6
  0
LTYPE
  5
14
330
5
100
AcDbSymbolTableRecord
100
AcDbLinetypeTableRecord
  2
ByBlock
 70
     0
  3

 72
    65
 73
     0
 40
0.0
  0
LTYPE
  5
15
330
5
100
AcDbSymbolTableRecord
100
AcDbLinetypeTableRecord
  2
ByLayer
 70
     0
  3

 72
    65
 73
     0
 40
0.0
  0
LTYPE
  5
16
330
5
100
AcDbSymbolTableRecord
100
AcDbLinetypeTableRecord
  2
Continuous
 70
     0
  3
Solid line
 72
    65
 73
     0
 40
0.0
  0
LTYPE
  5
6E
330
5
100
AcDbSymbolTableRecord
100
AcDbLinetypeTableRecord
  2
HIDDEN
 70
     0
  3
Hidden __ __ __ __ __ __ __ __ __ __ __ __ __ __
 72
    65
 73
     2
 40
1.905
 49
1.27
 74
     0
 49
-0.635
 74
     0
  0
LTYPE
  5
6F
330
5
100
AcDbSymbolTableRecord
100
AcDbLinetypeTableRecord
  2
PHANTOM
 70
     0
  3
Phantom ______  __  __  ______  __  __  ______
 72
    65
 73
     6
 40
12.7
 49
6.35
 74
     0
 49
-1.27
 74
     0
 49
1.27
 74
     0
 49
-1.27
 74
     0
 49
1.27
 74
     0
 49
-1.27
 74
     0
  0
LTYPE
  5
70
330
5
100
AcDbSymbolTableRecord
100
AcDbLinetypeTableRecord
  2
CENTER
 70
     0
  3
Center ____ _ ____ _ ____ _ ____ _ ____ _ ____
 72
    65
 73
     4
 40
10.16
 49
6.35
 74
     0
 49
-1.27
 74
     0
 49
1.27
 74
     0
 49
-1.27
 74
     0
  0
LTYPE
  5
71
330
5
100
AcDbSymbolTableRecord
100
AcDbLinetypeTableRecord
  2
CENTERX2
 70
     0
  3
Center (2x) ________  __  ________  __  _____
 72
    65
 73
     4
 40
20.32
 49
12.7
 74
     0
 49
-2.54
 74
     0
 49
2.54
 74
     0
 49
-2.54
 74
     0
  0
LTYPE
  5
72
330
5
100
AcDbSymbolTableRecord
100
AcDbLinetypeTableRecord
  2
DOT2
 70
     0
  3
Dot (.5x) ........................................
 72
    65
 73
     2
 40
0.635
 49
0.0
 74
     0
 49
-0.635
 74
     0
  0
ENDTAB
  0
TABLE
  2
LAYER
  5
2
330
0
100
AcDbSymbolTable
 70
    17
  0
LAYER
  5
10
330
2
100
AcDbSymbolTableRecord
100
AcDbLayerTableRecord
  2
0
 70
     0
 62
     7
  6
Continuous
370
    -3
390
F
  0
LAYER
  5
73
330
2
100
AcDbSymbolTableRecord
100
AcDbLayerTableRecord
  2
FORMAT
 70
     0
 62
     7
  6
Continuous
370
    -3
390
F
  0
LAYER
  5
74
330
2
100
AcDbSymbolTableRecord
100
AcDbLayerTableRecord
  2
YARDIMCI_GEOMETRI
 70
     0
 62
    -6
  6
Continuous
290
     0
370
    -3
390
F
  0
LAYER
  5
75
330
2
100
AcDbSymbolTableRecord
100
AcDbLayerTableRecord
  2
SAYFA_CERCEVESI
 70
     0
 62
     7
  6
Continuous
370
    25
390
F
  0
LAYER
  5
76
330
2
100
AcDbSymbolTableRecord
100
AcDbLayerTableRecord
  2
ANTET
 70
     0
 62
     7
  6
Continuous
370
    -3
390
F
  0
LAYER
  5
77
330
2
100
AcDbSymbolTableRecord
100
AcDbLayerTableRecord
  2
OLCU
 70
     0
 62
   150
  6
Continuous
370
    -3
390
F
  0
LAYER
  5
78
330
2
100
AcDbSymbolTableRecord
100
AcDbLayerTableRecord
  2
METIN
 70
     0
 62
    96
  6
Continuous
370
    -3
390
F
  0
LAYER
  5
79
330
2
100
AcDbSymbolTableRecord
100
AcDbLayerTableRecord
  2
BALON
 70
     0
 62
     5
  6
Continuous
370
    -3
390
F
  0
LAYER
  5
7A
330
2
100
AcDbSymbolTableRecord
100
AcDbLayerTableRecord
  2
VURGU
 70
     0
 62
     7
  6
Continuous
370
    -3
390
F
  0
LAYER
  5
7B
330
2
100
AcDbSymbolTableRecord
100
AcDbLayerTableRecord
  2
SILIK
 70
     0
 62
     7
  6
Continuous
370
    -3
390
F
  0
LAYER
  5
7C
330
2
100
AcDbSymbolTableRecord
100
AcDbLayerTableRecord
  2
MODEL
 70
     0
 62
     7
  6
Continuous
370
    -3
390
F
  0
LAYER
  5
7D
330
2
100
AcDbSymbolTableRecord
100
AcDbLayerTableRecord
  2
DETAYLANDıRMA
 70
     0
 62
   190
  6
Continuous
370
    -3
390
F
  0
LAYER
  5
7E
330
2
100
AcDbSymbolTableRecord
100
AcDbLayerTableRecord
  2
TOLERANS
 70
     0
 62
   230
  6
Continuous
370
    -3
390
F
  0
LAYER
  5
7F
330
2
100
AcDbSymbolTableRecord
100
AcDbLayerTableRecord
  2
MERKEZ_CIZGILERI
 70
     0
 62
    30
  6
Continuous
370
    -3
390
F
  0
LAYER
  5
80
330
2
100
AcDbSymbolTableRecord
100
AcDbLayerTableRecord
  2
KESIT-DETAY_CIZGILERI
 70
     0
 62
     7
  6
Continuous
370
    -3
390
F
  0
LAYER
  5
81
330
2
100
AcDbSymbolTableRecord
100
AcDbLayerTableRecord
  2
\U+041E\U+0421\U+0415\U+0412\U+042B\U+0415
 70
     0
 62
     7
  6
Continuous
370
    -3
390
F
  0
LAYER
  5
82
330
2
100
AcDbSymbolTableRecord
100
AcDbLayerTableRecord
  2
\U+0412\U+041E\U+0414\U+042F\U+041D\U+042B\U+0415_\U+0417\U+041D\U+0410\U+041A\U+0418
 70
     0
 62
    11
  6
Continuous
370
    -3
390
F
  0
ENDTAB
  0
TABLE
  2
STYLE
  5
3
330
0
100
AcDbSymbolTable
 70
     1
  0
STYLE
  5
11
330
3
100
AcDbSymbolTableRecord
100
AcDbTextStyleTableRecord
  2
Standard
 70
     0
 40
0.0
 41
1.0
 50
0.0
 71
     0
 42
3.5
  3
txt
  4

  0
ENDTAB
  0
TABLE
  2
VIEW
  5
6
330
0
100
AcDbSymbolTable
 70
     0
  0
ENDTAB
  0
TABLE
  2
UCS
  5
7
330
0
100
AcDbSymbolTable
 70
     0
  0
ENDTAB
  0
TABLE
  2
APPID
  5
9
330
0
100
AcDbSymbolTable
 70
     1
  0
APPID
  5
12
330
9
100
AcDbSymbolTableRecord
100
AcDbRegAppTableRecord
  2
ACAD
 70
     0
  0
ENDTAB
  0
TABLE
  2
DIMSTYLE
  5
A
330
0
100
AcDbSymbolTable
 70
     1
100
AcDbDimStyleTable
  0
DIMSTYLE
105
27
330
A
100
AcDbSymbolTableRecord
100
AcDbDimStyleTableRecord
  2
ISO-25
 70
     0
 41
2.5
 42
0.625
 43
3.75
 44
1.25
 73
     0
 74
     0
 77
     1
 78
     8
140
2.5
141
2.5
143
0.0393700787
147
0.625
171
     3
172
     1
178
     0
271
     2
272
     2
274
     3
278
    44
283
     0
284
     8
340
11
  0
ENDTAB
  0
TABLE
  2
BLOCK_RECORD
  5
1
330
0
100
AcDbSymbolTable
 70
     2
  0
BLOCK_RECORD
  5
1F
330
1
100
AcDbSymbolTableRecord
100
AcDbBlockTableRecord
  2
*Model_Space
340
22
  0
BLOCK_RECORD
  5
1B
330
1
100
AcDbSymbolTableRecord
100
AcDbBlockTableRecord
  2
*Paper_Space
340
1E
  0
BLOCK_RECORD
  5
23
330
1
100
AcDbSymbolTableRecord
100
AcDbBlockTableRecord
  2
*Paper_Space0
340
26
  0
BLOCK_RECORD
  5
87
330
1
100
AcDbSymbolTableRecord
100
AcDbBlockTableRecord
  2
SW_CENTERMARKSYMBOL_0
340
0
102
{BLKREFS
331
92
102
}
  0
ENDTAB
  0
ENDSEC
  0
SECTION
  2
BLOCKS
  0
BLOCK
  5
20
330
1F
100
AcDbEntity
  8
0
100
AcDbBlockBegin
  2
*Model_Space
 70
     0
 10
0.0
 20
0.0
 30
0.0
  3
*Model_Space
  1

  0
ENDBLK
  5
21
330
1F
100
AcDbEntity
  8
0
100
AcDbBlockEnd
  0
BLOCK
  5
1C
330
1B
100
AcDbEntity
 67
     1
  8
0
100
AcDbBlockBegin
  2
*Paper_Space
 70
     0
 10
0.0
 20
0.0
 30
0.0
  3
*Paper_Space
  1

  0
ENDBLK
  5
1D
330
1B
100
AcDbEntity
 67
     1
  8
0
100
AcDbBlockEnd
  0
BLOCK
  5
24
330
23
100
AcDbEntity
  8
0
100
AcDbBlockBegin
  2
*Paper_Space0
 70
     0
 10
0.0
 20
0.0
 30
0.0
  3
*Paper_Space0
  1

  0
ENDBLK
  5
25
330
23
100
AcDbEntity
  8
0
100
AcDbBlockEnd
  0
BLOCK
  5
88
330
87
100
AcDbEntity
  8
0
100
AcDbBlockBegin
  2
SW_CENTERMARKSYMBOL_0
 70
     0
 10
0.0
 20
0.0
 30
0.0
  3
SW_CENTERMARKSYMBOL_0
  1

  0
LINE
  5
8A
330
87
100
AcDbEntity
  8
FORMAT
 62
     0
100
AcDbLine
 10
0.0
 20
0.0
 30
0.0
 11
0.0
 21
2.5
 31
0.0
  0
LINE
  5
8B
330
87
100
AcDbEntity
  8
FORMAT
 62
     0
100
AcDbLine
 10
0.0
 20
0.0
 30
0.0
 11
-2.5
 21
0.0
 31
0.0
  0
LINE
  5
8C
330
87
100
AcDbEntity
  8
FORMAT
 62
     0
100
AcDbLine
 10
0.0
 20
0.0
 30
0.0
 11
0.0
 21
-2.5
 31
0.0
  0
LINE
  5
8D
330
87
100
AcDbEntity
  8
FORMAT
 62
     0
100
AcDbLine
 10
0.0
 20
0.0
 30
0.0
 11
2.5
 21
0.0
 31
0.0
  0
LINE
  5
8E
330
87
100
AcDbEntity
  8
FORMAT
 62
     0
100
AcDbLine
 10
0.0
 20
5.0
 30
0.0
 11
0.0
 21
81.5
 31
0.0
  0
LINE
  5
8F
330
87
100
AcDbEntity
  8
FORMAT
 62
     0
100
AcDbLine
 10
-5.0
 20
0.0
 30
0.0
 11
-81.5
 21
0.0
 31
0.0
  0
LINE
  5
90
330
87
100
AcDbEntity
  8
FORMAT
 62
     0
100
AcDbLine
 10
0.0
 20
-5.0
 30
0.0
 11
0.0
 21
-81.5
 31
0.0
  0
LINE
  5
91
330
87
100
AcDbEntity
  8
FORMAT
 62
     0
100
AcDbLine
 10
5.0
 20
0.0
 30
0.0
 11
81.5
 21
0.0
 31
0.0
  0
ENDBLK
  5
89
330
87
100
AcDbEntity
  8
0
100
AcDbBlockEnd
  0
ENDSEC
  0
SECTION
  2
ENTITIES
  0
CIRCLE
  5
83
330
1F
100
AcDbEntity
  8
0
  6
Continuous
 62
     7
370
    25
100
AcDbCircle
 10
136.8530296263
 20
104.4344370607
 30
0.0
 40
55.0
  0
CIRCLE
  5
84
330
1F
100
AcDbEntity
  8
0
  6
Continuous
 62
     7
370
    25
100
AcDbCircle
 10
136.8530296263
 20
104.4344370607
 30
0.0
 40
45.0
  0
CIRCLE
  5
85
330
1F
100
AcDbEntity
  8
0
  6
Continuous
 62
     7
370
    25
100
AcDbCircle
 10
136.8530296263
 20
104.4344370607
 30
0.0
 40
62.5
  0
CIRCLE
  5
86
330
1F
100
AcDbEntity
  8
0
  6
Continuous
 62
     7
370
    25
100
AcDbCircle
 10
136.8530296263
 20
104.4344370607
 30
0.0
 40
79.0
  0
INSERT
  5
92
330
1F
100
AcDbEntity
  8
FORMAT
 62
     7
100
AcDbBlockReference
  2
SW_CENTERMARKSYMBOL_0
 10
136.8530296263
 20
104.4344370607
 30
0.0
  0
LINE
  5
93
330
1F
100
AcDbEntity
  8
0
  6
Continuous
 62
     7
370
    25
100
AcDbLine
 10
215.8530296263
 20
209.5561574422
 30
0.0
 11
215.8530296263
 21
227.5561574422
 31
0.0
  0
LINE
  5
94
330
1F
100
AcDbEntity
  8
0
  6
Continuous
 62
     7
370
    25
100
AcDbLine
 10
57.8530296263
 20
227.5561574422
 30
0.0
 11
57.8530296263
 21
209.5561574422
 31
0.0
  0
LINE
  5
95
330
1F
100
AcDbEntity
  8
0
  6
Continuous
 62
     7
370
    25
100
AcDbLine
 10
199.3530296263
 20
227.5561574422
 30
0.0
 11
191.8530296263
 21
251.5561574422
 31
0.0
  0
LINE
  5
96
330
1F
100
AcDbEntity
  8
0
  6
Continuous
 62
     7
370
    25
100
AcDbLine
 10
81.8530296263
 20
251.5561574422
 30
0.0
 11
74.3530296263
 21
227.5561574422
 31
0.0
  0
LINE
  5
97
330
1F
100
AcDbEntity
  8
0
  6
Continuous
 62
     7
370
    25
100
AcDbLine
 10
191.8530296263
 20
251.5561574422
 30
0.0
 11
191.8530296263
 21
364.5561574422
 31
0.0
  0
LINE
  5
98
330
1F
100
AcDbEntity
  8
0
  6
Continuous
 62
     7
370
    25
100
AcDbLine
 10
81.8530296263
 20
364.5561574422
 30
0.0
 11
81.8530296263
 21
251.5561574422
 31
0.0
  0
LINE
  5
99
330
1F
100
AcDbEntity
  8
0
  6
Continuous
 62
     7
370
    25
100
AcDbLine
 10
215.8530296263
 20
209.5561574422
 30
0.0
 11
57.8530296263
 21
209.5561574422
 31
0.0
  0
LINE
  5
9A
330
1F
100
AcDbEntity
  8
0
  6
Continuous
 62
     7
370
    25
100
AcDbLine
 10
215.8530296263
 20
227.5561574422
 30
0.0
 11
57.8530296263
 21
227.5561574422
 31
0.0
  0
LINE
  5
9B
330
1F
100
AcDbEntity
  8
0
  6
Continuous
 62
     7
370
    25
100
AcDbLine
 10
191.8530296263
 20
251.5561574422
 30
0.0
 11
81.8530296263
 21
251.5561574422
 31
0.0
  0
LINE
  5
9C
330
1F
100
AcDbEntity
  8
0
  6
Continuous
 62
     7
370
    25
100
AcDbLine
 10
191.8530296263
 20
364.5561574422
 30
0.0
 11
81.8530296263
 21
364.5561574422
 31
0.0
  0
LINE
  5
9D
330
1F
100
AcDbEntity
  8
0
  6
Continuous
 62
     7
370
    25
100
AcDbLine
 10
20.7258483442
 20
183.4344370607
 30
0.0
 11
2.7258483442
 21
183.4344370607
 31
0.0
  0
LINE
  5
9E
330
1F
100
AcDbEntity
  8
0
  6
Continuous
 62
     7
370
    25
100
AcDbLine
 10
2.7258483442
 20
25.4344370607
 30
0.0
 11
20.7258483442
 21
25.4344370607
 31
0.0
  0
LINE
  5
9F
330
1F
100
AcDbEntity
  8
0
  6
Continuous
 62
     7
370
    25
100
AcDbLine
 10
2.7258483442
 20
166.9344370607
 30
0.0
 11
-21.2741516558
 21
159.4344370607
 31
0.0
  0
LINE
  5
A0
330
1F
100
AcDbEntity
  8
0
  6
Continuous
 62
     7
370
    25
100
AcDbLine
 10
-21.2741516558
 20
49.4344370607
 30
0.0
 11
2.7258483442
 21
41.9344370607
 31
0.0
  0
LINE
  5
A1
330
1F
100
AcDbEntity
  8
0
  6
Continuous
 62
     7
370
    25
100
AcDbLine
 10
-21.2741516558
 20
159.4344370607
 30
0.0
 11
-134.2741516558
 21
159.4344370607
 31
0.0
  0
LINE
  5
A2
330
1F
100
AcDbEntity
  8
0
  6
Continuous
 62
     7
370
    25
100
AcDbLine
 10
-134.2741516558
 20
49.4344370607
 30
0.0
 11
-21.2741516558
 21
49.4344370607
 31
0.0
  0
LINE
  5
A3
330
1F
100
AcDbEntity
  8
0
  6
Continuous
 62
     7
370
    25
100
AcDbLine
 10
20.7258483442
 20
183.4344370607
 30
0.0
 11
20.7258483442
 21
25.4344370607
 31
0.0
  0
LINE
  5
A4
330
1F
100
AcDbEntity
  8
0
  6
Continuous
 62
     7
370
    25
100
AcDbLine
 10
2.7258483442
 20
183.4344370607
 30
0.0
 11
2.7258483442
 21
25.4344370607
 31
0.0
  0
LINE
  5
A5
330
1F
100
AcDbEntity
  8
0
  6
Continuous
 62
     7
370
    25
100
AcDbLine
 10
-21.2741516558
 20
159.4344370607
 30
0.0
 11
-21.2741516558
 21
49.4344370607
 31
0.0
  0
LINE
  5
A6
330
1F
100
AcDbEntity
  8
0
  6
Continuous
 62
     7
370
    25
100
AcDbLine
 10
-134.2741516558
 20
159.4344370607
 30
0.0
 11
-134.2741516558
 21
49.4344370607
 31
0.0
  0
LINE
  5
A7
330
1F
100
AcDbEntity
  8
0
  6
Continuous
 62
     7
370
    25
100
AcDbLine
 10
248.2584015006
 20
25.4344370607
 30
0.0
 11
266.2584015006
 21
25.4344370607
 31
0.0
  0
LINE
  5
A8
330
1F
100
AcDbEntity
  8
0
  6
Continuous
 62
     7
370
    25
100
AcDbLine
 10
266.2584015006
 20
183.4344370607
 30
0.0
 11
248.2584015006
 21
183.4344370607
 31
0.0
  0
LINE
  5
A9
330
1F
100
AcDbEntity
  8
0
  6
Continuous
 62
     7
370
    25
100
AcDbLine
 10
266.2584015006
 20
41.9344370607
 30
0.0
 11
290.2584015006
 21
49.4344370607
 31
0.0
  0
LINE
  5
AA
330
1F
100
AcDbEntity
  8
0
  6
Continuous
 62
     7
370
    25
100
AcDbLine
 10
290.2584015006
 20
159.4344370607
 30
0.0
 11
266.2584015006
 21
166.9344370607
 31
0.0
  0
LINE
  5
AB
330
1F
100
AcDbEntity
  8
0
  6
Continuous
 62
     7
370
    25
100
AcDbLine
 10
290.2584015006
 20
49.4344370607
 30
0.0
 11
403.2584015006
 21
49.4344370607
 31
0.0
  0
LINE
  5
AC
330
1F
100
AcDbEntity
  8
0
  6
Continuous
 62
     7
370
    25
100
AcDbLine
 10
403.2584015006
 20
159.4344370607
 30
0.0
 11
290.2584015006
 21
159.4344370607
 31
0.0
  0
LINE
  5
AD
330
1F
100
AcDbEntity
  8
0
  6
Continuous
 62
     7
370
    25
100
AcDbLine
 10
248.2584015006
 20
104.4344370607
 30
0.0
 11
248.2584015006
 21
183.4344370607
 31
0.0
  0
LINE
  5
AE
330
1F
100
AcDbEntity
  8
0
  6
Continuous
 62
     7
370
    25
100
AcDbLine
 10
248.2584015006
 20
25.4344370607
 30
0.0
 11
248.2584015006
 21
104.4344370607
 31
0.0
  0
LINE
  5
AF
330
1F
100
AcDbEntity
  8
0
  6
Continuous
 62
     7
370
    25
100
AcDbLine
 10
266.2584015006
 20
104.4344370607
 30
0.0
 11
266.2584015006
 21
183.4344370607
 31
0.0
  0
LINE
  5
B0
330
1F
100
AcDbEntity
  8
0
  6
Continuous
 62
     7
370
    25
100
AcDbLine
 10
266.2584015006
 20
25.4344370607
 30
0.0
 11
266.2584015006
 21
104.4344370607
 31
0.0
  0
LINE
  5
B1
330
1F
100
AcDbEntity
  8
0
  6
Continuous
 62
     7
370
    25
100
AcDbLine
 10
290.2584015006
 20
104.4344370607
 30
0.0
 11
290.2584015006
 21
159.4344370607
 31
0.0
  0
LINE
  5
B2
330
1F
100
AcDbEntity
  8
0
  6
Continuous
 62
     7
370
    25
100
AcDbLine
 10
290.2584015006
 20
49.4344370607
 30
0.0
 11
290.2584015006
 21
104.4344370607
 31
0.0
  0
LINE
  5
B3
330
1F
100
AcDbEntity
  8
0
  6
Continuous
 62
     7
370
    25
100
AcDbLine
 10
403.2584015006
 20
104.4344370607
 30
0.0
 11
403.2584015006
 21
159.4344370607
 31
0.0
  0
LINE
  5
B4
330
1F
100
AcDbEntity
  8
0
  6
Continuous
 62
     7
370
    25
100
AcDbLine
 10
403.2584015006
 20
49.4344370607
 30
0.0
 11
403.2584015006
 21
104.4344370607
 31
0.0
  0
LINE
  5
B5
330
1F
100
AcDbEntity
  8
0
  6
Continuous
 62
     7
370
    25
100
AcDbLine
 10
57.8530296263
 20
-8.6670488043
 30
0.0
 11
57.8530296263
 21
-26.6670488043
 31
0.0
  0
LINE
  5
B6
330
1F
100
AcDbEntity
  8
0
  6
Continuous
 62
     7
370
    25
100
AcDbLine
 10
215.8530296263
 20
-26.6670488043
 30
0.0
 11
215.8530296263
 21
-8.6670488043
 31
0.0
  0
LINE
  5
B7
330
1F
100
AcDbEntity
  8
0
  6
Continuous
 62
     7
370
    25
100
AcDbLine
 10
74.3530296263
 20
-26.6670488043
 30
0.0
 11
81.8530296263
 21
-50.6670488043
 31
0.0
  0
LINE
  5
B8
330
1F
100
AcDbEntity
  8
0
  6
Continuous
 62
     7
370
    25
100
AcDbLine
 10
191.8530296263
 20
-50.6670488043
 30
0.0
 11
199.3530296263
 21
-26.6670488043
 31
0.0
  0
LINE
  5
B9
330
1F
100
AcDbEntity
  8
0
  6
Continuous
 62
     7
370
    25
100
AcDbLine
 10
81.8530296263
 20
-50.6670488043
 30
0.0
 11
81.8530296263
 21
-163.6670488043
 31
0.0
  0
LINE
  5
BA
330
1F
100
AcDbEntity
  8
0
  6
Continuous
 62
     7
370
    25
100
AcDbLine
 10
191.8530296263
 20
-163.6670488043
 30
0.0
 11
191.8530296263
 21
-50.6670488043
 31
0.0
  0
LINE
  5
BB
330
1F
100
AcDbEntity
  8
0
  6
Continuous
 62
     7
370
    25
100
AcDbLine
 10
57.8530296263
 20
-8.6670488043
 30
0.0
 11
215.8530296263
 21
-8.6670488043
 31
0.0
  0
LINE
  5
BC
330
1F
100
AcDbEntity
  8
0
  6
Continuous
 62
     7
370
    25
100
AcDbLine
 10
57.8530296263
 20
-26.6670488043
 30
0.0
 11
215.8530296263
 21
-26.6670488043
 31
0.0
  0
LINE
  5
BD
330
1F
100
AcDbEntity
  8
0
  6
Continuous
 62
     7
370
    25
100
AcDbLine
 10
81.8530296263
 20
-50.6670488043
 30
0.0
 11
191.8530296263
 21
-50.6670488043
 31
0.0
  0
LINE
  5
BE
330
1F
100
AcDbEntity
  8
0
  6
Continuous
 62
     7
370
    25
100
AcDbLine
 10
81.8530296263
 20
-163.6670488043
 30
0.0
 11
191.8530296263
 21
-163.6670488043
 31
0.0
  0
LINE
  5
BF
330
1F
100
AcDbEntity
  8
0
  6
Continuous
 62
     7
370
    25
100
AcDbLine
 10
302.6856454903
 20
-31.8436982951
 30
0.0
 11
249.9490665412
 21
-83.3162160639
 31
0.0
  0
LINE
  5
C0
330
1F
100
AcDbEntity
  8
0
  6
Continuous
 62
     7
370
    25
100
AcDbLine
 10
326.7816639928
 20
-162.0356670837
 30
0.0
 11
379.5182429419
 21
-110.5631493148
 31
0.0
  0
LINE
  5
C1
330
1F
100
AcDbEntity
  8
0
  6
Continuous
 62
     7
370
    25
100
AcDbLine
 10
299.3125975982
 20
-30.6220460447
 30
0.0
 11
297.0742832321
 21
-37.3205598833
 31
0.0
  0
LINE
  5
C2
330
1F
100
AcDbEntity
  8
0
  6
Continuous
 62
     7
370
    25
100
AcDbLine
 10
373.9068806837
 20
-116.040010903
 30
0.0
 11
380.6577173257
 21
-113.9648377826
 31
0.0
  0
LINE
  5
C3
330
1F
100
AcDbEntity
  8
0
  6
Continuous
 62
     7
370
    25
100
AcDbLine
 10
305.5233760177
 20
4.4628329405
 30
0.0
 11
297.122859017
 21
-3.736329182
 31
0.0
  0
LINE
  5
C4
330
1F
100
AcDbEntity
  8
0
  6
Continuous
 62
     7
370
    25
100
AcDbLine
 10
407.4824080838
 20
-116.8060861012
 30
0.0
 11
415.8829250845
 21
-108.6069239787
 31
0.0
  0
LWPOLYLINE
  5
C5
330
1F
100
AcDbEntity
  8
0
  6
Continuous
 62
     7
370
    25
100
AcDbPolyline
 90
       56
 70
   128
 43
0.0
 10
302.6856454903
 20
-31.8436982951
 10
303.8392469033
 20
-30.7725125007
 10
305.720310575
 20
-29.2351398381
 10
307.7210944951
 20
-27.8397745637
 10
309.8348286443
 20
-26.5911381518
 10
312.0543608151
 20
-25.4934555929
 10
314.3721808134
 20
-24.5504410973
 10
316.78044587
 20
-23.7652855275
 10
319.2710071781
 20
-23.1406456015
 10
321.8354374668
 20
-22.678634903
 10
324.4650595156
 20
-22.38081673
 10
327.150975516
 20
-22.2481988048
 10
329.8840971784
 20
-22.2812298647
 10
332.6551764842
 20
-22.4797981429
 10
335.4548369783
 20
-22.8432317473
 10
338.2736054957
 20
-23.3703009335
 10
341.1019442161
 20
-24.0592222663
 10
343.9302829364
 20
-24.907664654
 10
346.7490514539
 20
-25.912757236
 10
349.548711948
 20
-27.0710990973
 10
352.3197912538
 20
-28.3787707756
 10
355.0529129162
 20
-29.831347524
 10
357.7388289166
 20
-31.4239142825
 10
360.3684509654
 20
-33.1510823093
 10
362.9328812541
 20
-35.0070074145
 10
365.4234425622
 20
-36.9854097351
 10
367.8317076187
 20
-39.0795949839
 10
370.149527617
 20
-41.2824771008
 10
372.3690597879
 20
-43.5866022301
 10
374.482793937
 20
-45.9841739418
 10
376.4835778572
 20
-48.467079612
 10
378.3646415288
 20
-51.0269178739
 10
380.1196200281
 20
-53.6550270452
 10
381.7425750631
 20
-56.3425144363
 10
383.2280150678
 20
-59.0802864406
 10
384.5709137834
 20
-61.8590793042
 10
385.7667272658
 20
-64.6694904718
 10
386.8114092607
 20
-67.5020104015
 10
387.7014248949
 20
-70.3470547425
 10
388.4337626371
 20
-73.1949967653
 10
389.0059444884
 20
-76.0361999356
 10
389.4160343663
 20
-78.8610505213
 10
389.6626446567
 20
-81.6599901222
 10
389.7449409083
 20
-84.4235480125
 10
389.6626446567
 20
-87.1423731873
 10
389.4160343663
 20
-89.8072660028
 10
389.0059444884
 20
-92.4092093051
 10
388.4337626371
 20
-94.9393989418
 10
387.7014248949
 20
-97.3892735522
 10
386.8114092607
 20
-99.7505435359
 10
385.7667272658
 20
-102.0152191028
 10
384.5709137834
 20
-104.1756373077
 10
383.2280150678
 20
-106.2244879792
 10
381.7425750631
 20
-108.1548384552
 10
380.1196200281
 20
-109.9601570407
 10
379.5182429419
 20
-110.5631493148
  0
LWPOLYLINE
  5
C6
330
1F
100
AcDbEntity
  8
0
  6
Continuous
 62
     7
370
    25
100
AcDbPolyline
 90
      109
 70
   128
 43
0.0
 10
239.7223685747
 20
-109.4558173662
 10
239.8046648263
 20
-106.7369921914
 10
240.0512751167
 20
-104.072099376
 10
240.4613649947
 20
-101.4701560736
 10
241.033546846
 20
-98.9399664369
 10
241.7658845882
 20
-96.4900918265
 10
242.6559002224
 20
-94.1288218428
 10
243.7005822172
 20
-91.8641462759
 10
244.8963956996
 20
-89.703728071
 10
246.2392944153
 20
-87.6548773995
 10
247.72473442
 20
-85.7245269235
 10
249.347689455
 20
-83.919208338
 10
251.1026679542
 20
-82.2450302696
 10
252.9837316259
 20
-80.707657607
 10
254.984515546
 20
-79.3122923325
 10
257.0982496952
 20
-78.0636559207
 10
259.317781866
 20
-76.9659733618
 10
261.6356018643
 20
-76.0229588662
 10
264.0438669209
 20
-75.2378032964
 10
266.534428229
 20
-74.6131633704
 10
269.0988585177
 20
-74.1511526719
 10
271.7284805665
 20
-73.8533344988
 10
274.4143965669
 20
-73.7207165737
 10
277.1475182293
 20
-73.7537476336
 10
279.9185975351
 20
-73.9523159118
 10
282.7182580292
 20
-74.3157495162
 10
285.5370265466
 20
-74.8428187024
 10
288.365365267
 20
-75.5317400352
 10
291.1937039874
 20
-76.3801824228
 10
294.0124725048
 20
-77.3852750049
 10
296.8121329989
 20
-78.5436168662
 10
299.5832123047
 20
-79.8512885445
 10
302.3163339671
 20
-81.3038652929
 10
305.0022499675
 20
-82.8964320514
 10
307.6318720163
 20
-84.6236000782
 10
310.196302305
 20
-86.4795251834
 10
312.6868636131
 20
-88.457927504
 10
315.0951286697
 20
-90.5521127528
 10
317.4129486679
 20
-92.7549948697
 10
319.6324808388
 20
-95.059119999
 10
321.7462149879
 20
-97.4566917107
 10
323.7469989081
 20
-99.9395973809
 10
325.6280625797
 20
-102.4994356428
 10
327.383041079
 20
-105.1275448141
 10
329.005996114
 20
-107.8150322052
 10
330.4914361187
 20
-110.5528042095
 10
331.8343348343
 20
-113.3315970731
 10
333.0301483167
 20
-116.1420082407
 10
334.0748303116
 20
-118.9745281704
 10
334.9648459458
 20
-121.8195725113
 10
335.697183688
 20
-124.6675145342
 10
336.2693655393
 20
-127.5087177045
 10
336.6794554173
 20
-130.3335682902
 10
336.9260657076
 20
-133.132507891
 10
337.0083619592
 20
-135.8960657814
 10
336.9260657076
 20
-138.6148909562
 10
336.6794554173
 20
-141.2797837716
 10
336.2693655393
 20
-143.881727074
 10
335.697183688
 20
-146.4119167107
 10
334.9648459458
 20
-148.8617913211
 10
334.0748303116
 20
-151.2230613048
 10
333.0301483167
 20
-153.4877368717
 10
331.8343348343
 20
-155.6481550766
 10
330.4914361187
 20
-157.6970057481
 10
329.005996114
 20
-159.6273562241
 10
327.383041079
 20
-161.4326748096
 10
325.6280625797
 20
-163.106852878
 10
323.7469989081
 20
-164.6442255406
 10
321.7462149879
 20
-166.0395908151
 10
319.6324808388
 20
-167.2882272269
 10
317.4129486679
 20
-168.3859097858
 10
315.0951286697
 20
-169.3289242814
 10
312.6868636131
 20
-170.1140798512
 10
310.196302305
 20
-170.7387197772
 10
307.6318720163
 20
-171.2007304757
 10
305.0022499675
 20
-171.4985486487
 10
302.3163339671
 20
-171.6311665739
 10
299.5832123047
 20
-171.598135514
 10
296.8121329989
 20
-171.3995672358
 10
294.0124725048
 20
-171.0361336314
 10
291.1937039874
 20
-170.5090644452
 10
288.365365267
 20
-169.8201431124
 10
285.5370265466
 20
-168.9717007248
 10
282.7182580292
 20
-167.9666081427
 10
279.9185975351
 20
-166.8082662814
 10
277.1475182293
 20
-165.5005946031
 10
274.4143965669
 20
-164.0480178547
 10
271.7284805665
 20
-162.4554510962
 10
269.0988585177
 20
-160.7282830694
 10
266.534428229
 20
-158.8723579642
 10
264.0438669209
 20
-156.8939556436
 10
261.6356018643
 20
-154.7997703948
 10
259.317781866
 20
-152.5968882779
 10
257.0982496952
 20
-150.2927631486
 10
254.984515546
 20
-147.8951914369
 10
252.9837316259
 20
-145.4122857667
 10
251.1026679542
 20
-142.8524475048
 10
249.347689455
 20
-140.2243383335
 10
247.72473442
 20
-137.5368509424
 10
246.2392944153
 20
-134.7990789381
 10
244.8963956996
 20
-132.0202860745
 10
243.7005822172
 20
-129.2098749069
 10
242.6559002224
 20
-126.3773549772
 10
241.7658845882
 20
-123.5323106362
 10
241.033546846
 20
-120.6843686134
 10
240.4613649947
 20
-117.8431654431
 10
240.0512751167
 20
-115.0183148574
 10
239.8046648263
 20
-112.2193752566
 10
239.7223685747
 20
-109.4558173662
  0
LWPOLYLINE
  5
C7
330
1F
100
AcDbEntity
  8
0
  6
Continuous
 62
     7
370
    25
100
AcDbPolyline
 90
       98
 70
   128
 43
0.0
 10
248.5665497915
 20
-111.859476313
 10
248.6500148231
 20
-109.3853675541
 10
248.9000598365
 20
-106.9670040814
 10
249.315636056
 20
-104.6145293517
 10
249.8950004106
 20
-102.3378104618
 10
250.6357228448
 20
-100.1463967617
 10
251.5346965113
 20
-98.0494798021
 10
252.5881508022
 20
-96.0558547815
 10
253.7916671639
 20
-94.173883656
 10
255.1401976307
 20
-92.4114600666
 10
256.6280859972
 20
-90.7759762303
 10
258.2490915423
 20
-89.2742919347
 10
259.9964152056
 20
-87.9127057655
 10
261.8627281044
 20
-86.6969286884
 10
263.8402022738
 20
-85.632060095
 10
265.9205434998
 20
-84.7225664141
 10
268.0950261085
 20
-83.9722623784
 10
270.3545295641
 20
-83.3842950237
 10
272.6895767238
 20
-82.9611304894
 10
275.0903735883
 20
-82.7045436747
 10
277.5468503814
 20
-82.6156107938
 10
280.0487037855
 20
-82.6947048622
 10
282.5854401582
 20
-82.9414941318
 10
285.1464195455
 20
-83.3549434827
 10
287.7209003097
 20
-83.9333187646
 10
290.298084184
 20
-84.6741940705
 10
292.8671615635
 20
-85.5744619121
 10
295.4173568448
 20
-86.630346253
 10
297.9379736227
 20
-87.8374183474
 10
300.4184395544
 20
-89.1906153154
 10
302.8483507038
 20
-90.6842613788
 10
305.2175151791
 20
-92.3120916668
 10
307.5159958812
 20
-94.0672784935
 10
309.7341521831
 20
-95.9424599954
 10
311.8626803665
 20
-97.9297710095
 10
313.8926526445
 20
-100.0208760629
 10
315.8155546079
 20
-102.2070043342
 10
317.6233209376
 20
-104.4789864418
 10
319.3083692333
 20
-106.8272929031
 10
320.863631817
 20
-109.2420741047
 10
322.2825853768
 20
-111.7132016151
 10
323.5592783284
 20
-114.2303106667
 10
324.6883557778
 20
-116.7828436294
 10
325.6650819819
 20
-119.3600942928
 10
326.4853602116
 20
-121.9512527721
 10
327.1457499348
 20
-124.5454508481
 10
327.6434812476
 20
-127.1318075525
 10
327.9764664918
 20
-129.6994748064
 10
328.1433090117
 20
-132.2376829211
 10
328.1433090117
 20
-134.7357857696
 10
327.9764664918
 20
-137.1833054406
 10
327.6434812476
 20
-139.5699761857
 10
327.1457499348
 20
-141.8857874787
 10
326.4853602116
 20
-144.121026002
 10
325.6650819819
 20
-146.2663163885
 10
324.6883557778
 20
-148.3126605448
 10
323.5592783284
 20
-150.2514753924
 10
322.2825853768
 20
-152.0746288679
 10
320.863631817
 20
-153.7744740322
 10
319.3083692333
 20
-155.3438811438
 10
317.6233209376
 20
-156.776267564
 10
315.8155546079
 20
-158.0656253663
 10
313.8926526445
 20
-159.2065465359
 10
311.8626803665
 20
-160.1942456531
 10
309.7341521831
 20
-161.0245799644
 10
307.5159958812
 20
-161.6940667592
 10
305.2175151791
 20
-162.1998979772
 10
302.8483507038
 20
-162.5399519866
 10
300.4184395544
 20
-162.7128024825
 10
297.9379736227
 20
-162.71772447
 10
295.4173568448
 20
-162.5546973045
 10
292.8671615635
 20
-162.2244047786
 10
290.298084184
 20
-161.728232254
 10
287.7209003097
 20
-161.0682608507
 10
285.1464195455
 20
-160.247258718
 10
282.5854401582
 20
-159.2686694243
 10
280.0487037855
 20
-158.1365975131
 10
277.5468503814
 20
-156.8557912874
 10
275.0903735883
 20
-155.4316228937
 10
272.6895767238
 20
-153.8700657891
 10
270.3545295641
 20
-152.1776696869
 10
268.0950261085
 20
-150.3615330843
 10
265.9205434998
 20
-148.4292734896
 10
263.8402022738
 20
-146.3889954709
 10
261.8627281044
 20
-144.2492566632
 10
259.9964152056
 20
-142.0190318749
 10
258.2490915423
 20
-139.7076754436
 10
256.6280859972
 20
-137.3248820015
 10
255.1401976307
 20
-134.8806458124
 10
253.7916671639
 20
-132.3852188522
 10
252.5881508022
 20
-129.849067809
 10
251.5346965113
 20
-127.2828301815
 10
250.6357228448
 20
-124.6972696621
 10
249.8950004106
 20
-122.1032309903
 10
249.315636056
 20
-119.5115944657
 10
248.9000598365
 20
-116.9332303126
 10
248.6500148231
 20
-114.3789530863
 10
248.5665497915
 20
-111.859476313
  0
LWPOLYLINE
  5
C8
330
1F
100
AcDbEntity
  8
0
  6
Continuous
 62
     7
370
    25
100
AcDbPolyline
 90
       73
 70
   128
 43
0.0
 10
299.3125975982
 20
-30.6220460447
 10
299.9701188678
 20
-28.7990200337
 10
301.0201286405
 20
-26.3403481376
 10
302.2231855636
 20
-23.9829392623
 10
303.5756992424
 20
-21.7338288424
 10
305.0736332445
 20
-19.5997291073
 10
306.7125171462
 20
-17.5870090494
 10
308.4874598738
 20
-15.7016754166
 10
310.3931643004
 20
-13.9493547852
 10
312.4239430551
 20
-12.3352767688
 10
314.573735496
 20
-10.8642584106
 10
316.8361257974
 20
-9.5406898076
 10
319.2043620975
 20
-8.3685210086
 10
321.6713766484
 20
-7.3512502261
 10
324.229806909
 20
-6.4919133958
 10
326.8720175179
 20
-5.7930751167
 10
329.5901230802
 20
-5.2568209968
 10
332.3760117005
 20
-4.8847514292
 10
335.2213691922
 20
-4.6779768158
 10
338.1177038903
 20
-4.6371142531
 10
341.0563719937
 20
-4.7622856913
 10
344.0286033617
 20
-5.0531175694
 10
347.0255276878
 20
-5.508741931
 10
350.0382009718
 20
-6.1277990137
 10
353.0576322127
 20
-6.908441308
 10
356.0748102408
 20
-7.8483390705
 10
359.0807306111
 20
-8.9446872767
 10
362.0664224757
 20
-10.1942139928
 10
365.0229753567
 20
-11.59319014
 10
367.9415657382
 20
-13.1374406235
 10
370.8134833994
 20
-14.8223567929
 10
373.6301574093
 20
-16.6429101963
 10
376.3831817055
 20
-18.5936675866
 10
379.0643401815
 20
-20.6688071372
 10
381.6656312067
 20
-22.862135816
 10
384.1792915062
 20
-25.1671078682
 10
386.5978193298
 20
-27.5768443512
 10
388.9139968398
 20
-30.0841536643
 10
391.1209116522
 20
-32.6815530109
 10
393.2119774658
 20
-35.3612907307
 10
395.1809537185
 20
-38.115369433
 10
397.021964211
 20
-40.9355698646
 10
398.7295146447
 20
-43.8134754388
 10
400.2985090178
 20
-46.7404973544
 10
401.7242648345
 20
-49.7079002275
 10
403.0025270791
 20
-52.7068281616
 10
404.1294809145
 20
-55.7283311772
 10
405.1017630677
 20
-58.7633919217
 10
405.9164718666
 20
-61.8029525809
 10
406.5711758998
 20
-64.8379419112
 10
407.0639212733
 20
-67.8593023115
 10
407.3932374411
 20
-70.858016855
 10
407.5581415944
 20
-73.8251361987
 10
407.5581415944
 20
-76.7518052926
 10
407.3932374411
 20
-79.6292898055
 10
407.0639212733
 20
-82.4490021929
 10
406.5711758998
 20
-85.2025273248
 10
405.9164718666
 20
-87.8816475998
 10
405.1017630677
 20
-90.4783674702
 10
404.1294809145
 20
-92.9849373031
 10
403.0025270791
 20
-95.3938765092
 10
401.7242648345
 20
-97.6979958669
 10
400.2985090178
 20
-99.8904189785
 10
398.7295146447
 20
-101.9646027918
 10
397.021964211
 20
-103.9143571271
 10
395.1809537185
 20
-105.733863151
 10
393.2119774658
 20
-107.4176907425
 10
391.1209116522
 20
-108.9608146982
 10
388.9139968398
 20
-110.3586297298
 10
386.5978193298
 20
-111.6069642078
 10
384.1792915062
 20
-112.7020926115
 10
381.6656312067
 20
-113.6407466473
 10
380.6577173257
 20
-113.9648377826
  0
LWPOLYLINE
  5
C9
330
1F
100
AcDbEntity
  8
0
  6
Continuous
 62
     7
370
    25
100
AcDbPolyline
 90
       67
 70
   128
 43
0.0
 10
305.5233760177
 20
4.4628329405
 10
306.4582960708
 20
5.3497884363
 10
308.6666393709
 20
7.2586684778
 10
310.9984075265
 20
9.0268226207
 10
313.448069841
 20
10.6500569986
 10
316.0098159862
 20
12.124521479
 10
318.6775697831
 20
13.446718795
 10
321.4450036146
 20
14.6135128407
 10
324.3055534334
 20
15.6221361095
 10
327.2524343312
 20
16.4701962585
 10
330.2786566322
 20
17.1556817826
 10
333.3770424714
 20
17.6769667859
 10
336.54024282
 20
18.032814838
 10
339.7607549161
 20
18.2223819067
 10
343.030940061
 20
18.2452183598
 10
346.3430417366
 20
18.1012700317
 10
349.6892040039
 20
17.7908783519
 10
353.0614901355
 20
17.3147795354
 10
356.4519014414
 20
16.6741028357
 10
359.8523962404
 20
15.8703678674
 10
363.2549089347
 20
14.9054810009
 10
366.65136914
 20
13.7817308413
 10
370.0337208281
 20
12.5017827997
 10
373.3939414342
 20
11.0686727717
 10
376.7240608865
 20
9.4857999357
 10
380.0161805095
 20
7.7569186913
 10
383.2624917592
 20
5.8861297539
 10
386.4552947439
 20
3.877870428
 10
389.5870164877
 20
1.7369040829
 10
392.6502288927
 20
-0.5316911458
 10
395.6376663574
 20
-2.9225344007
 10
398.5422430102
 20
-5.429954866
 10
401.3570695163
 20
-8.0480052171
 10
404.0754694181
 20
-10.770475728
 10
406.6909949713
 20
-13.5909089994
 10
409.1974424384
 20
-16.5026152751
 10
411.5888668029
 20
-19.4986883096
 10
413.8595958704
 20
-22.5720217487
 10
416.0042437224
 20
-25.7153259849
 10
418.0177234912
 20
-28.9211454479
 10
419.8952594251
 20
-32.1818762882
 10
421.6323982164
 20
-35.4897844123
 10
423.2250195639
 20
-38.8370238278
 10
424.6693459455
 20
-42.2156552525
 10
425.9619515788
 20
-45.617664946
 10
427.0997705459
 20
-49.0349837171
 10
428.080104066
 20
-52.4595060632
 10
428.9006268963
 20
-55.8831093957
 10
429.5593928473
 20
-59.2976733058
 10
430.0548393989
 20
-62.6950988251
 10
430.3857914066
 20
-66.0673276356
 10
430.5514638889
 20
-69.4063611831
 10
430.5514638889
 20
-72.704279649
 10
430.3857914066
 20
-75.953260735
 10
430.0548393989
 20
-79.1455982169
 10
429.5593928473
 20
-82.273720223
 10
428.9006268963
 20
-85.3302071935
 10
428.080104066
 20
-88.3078094788
 10
427.0997705459
 20
-91.1994645354
 10
425.9619515788
 20
-93.998313677
 10
424.6693459455
 20
-96.6977183426
 10
423.2250195639
 20
-99.2912758426
 10
421.6323982164
 20
-101.7728345451
 10
419.8952594251
 20
-104.136508467
 10
418.0177234912
 20
-106.376691235
 10
416.0042437224
 20
-108.4880693831
 10
415.8829250845
 20
-108.6069239787
  0
LWPOLYLINE
  5
CA
330
1F
100
AcDbEntity
  8
0
  6
Continuous
 62
     7
370
    25
100
AcDbPolyline
 90
       96
 70
   128
 43
0.0
 10
282.4336019379
 20
-41.2823019616
 10
282.5164627498
 20
-38.0078812211
 10
282.7648486487
 20
-34.7862666313
 10
283.1781704907
 20
-31.6250995059
 10
283.7554479222
 20
-28.5318777841
 10
284.4953117047
 20
-25.5139382461
 10
285.3960069632
 20
-22.5784391111
 10
286.4553973481
 20
-19.7323430587
 10
287.6709701022
 20
-16.9824007143
 10
289.0398420215
 20
-14.3351346373
 10
290.5587662929
 20
-11.7968238504
 10
292.2241401959
 20
-9.3734889463
 10
294.0320136475
 20
-7.0708778077
 10
295.9780985717
 20
-4.8944519737
 10
298.05777907
 20
-2.8493736862
 10
300.2661223702
 20
-0.9404936447
 10
302.5978905257
 20
0.8276604982
 10
305.0475528403
 20
2.4508948761
 10
307.6092989854
 20
3.9253593565
 10
310.2770527824
 20
5.2475566726
 10
313.0444866139
 20
6.4143507183
 10
315.9050364326
 20
7.4229739871
 10
318.8519173304
 20
8.271034136
 10
321.8781396314
 20
8.9565196601
 10
324.9765254707
 20
9.4778046634
 10
328.1397258192
 20
9.8336527156
 10
331.3602379154
 20
10.0232197842
 10
334.6304230602
 20
10.0460562373
 10
337.9425247359
 20
9.9021079092
 10
341.2886870031
 20
9.5917162295
 10
344.6609731348
 20
9.1156174129
 10
348.0513844406
 20
8.4749407133
 10
351.4518792397
 20
7.6712057449
 10
354.854391934
 20
6.7063188784
 10
358.2508521393
 20
5.5825687188
 10
361.6332038273
 20
4.3026206773
 10
364.9934244335
 20
2.8695106492
 10
368.3235438858
 20
1.2866378132
 10
371.6156635088
 20
-0.4422434311
 10
374.8619747584
 20
-2.3130323686
 10
378.0547777432
 20
-4.3212916945
 10
381.186499487
 20
-6.4622580396
 10
384.249711892
 20
-8.7308532683
 10
387.2371493567
 20
-11.1216965232
 10
390.1417260095
 20
-13.6291169884
 10
392.9565525155
 20
-16.2471673396
 10
395.6749524173
 20
-18.9696378505
 10
398.2904779706
 20
-21.7900711218
 10
400.7969254377
 20
-24.7017773976
 10
403.1883498022
 20
-27.6978504321
 10
405.4590788697
 20
-30.7711838711
 10
407.6037267217
 20
-33.9144881074
 10
409.6172064904
 20
-37.1203075704
 10
411.4947424244
 20
-40.3810384106
 10
413.2318812157
 20
-43.6889465348
 10
414.8245025631
 20
-47.0361859503
 10
416.2688289448
 20
-50.414817375
 10
417.561434578
 20
-53.8168270684
 10
418.6992535452
 20
-57.2341458395
 10
419.6795870653
 20
-60.6586681857
 10
420.5001098956
 20
-64.0822715182
 10
421.1588758465
 20
-67.4968354283
 10
421.6543223981
 20
-70.8942609476
 10
421.9852744059
 20
-74.266489758
 10
422.1509468882
 20
-77.6055233056
 10
422.1509468882
 20
-80.9034417714
 10
421.9852744059
 20
-84.1524228575
 10
421.6543223981
 20
-87.3447603394
 10
421.1588758465
 20
-90.4728823455
 10
420.5001098956
 20
-93.5293693159
 10
419.6795870653
 20
-96.5069716013
 10
418.6992535452
 20
-99.3986266579
 10
417.561434578
 20
-102.1974757995
 10
416.2688289448
 20
-104.8968804651
 10
414.8245025631
 20
-107.490437965
 10
413.2318812157
 20
-109.9719966675
 10
411.4947424243
 20
-112.3356705895
 10
409.6172064904
 20
-114.5758533575
 10
407.6037267217
 20
-116.6872315056
 10
405.4590788697
 20
-118.6647970779
 10
403.1883498022
 20
-120.5038595076
 10
400.7969254377
 20
-122.2000567416
 10
398.2904779706
 20
-123.7493655876
 10
395.6749524173
 20
-125.1481112561
 10
392.9565525155
 20
-126.3929760769
 10
390.1417260095
 20
-127.4810073682
 10
387.2371493567
 20
-128.40962444
 10
384.249711892
 20
-129.1766247153
 10
381.186499487
 20
-129.780188954
 10
378.0547777432
 20
-130.2188855685
 10
374.8619747584
 20
-130.4916740189
 10
371.6156635088
 20
-130.5979072811
 10
368.3235438858
 20
-130.5373333816
 10
364.9934244335
 20
-130.3100959949
 10
361.6332038273
 20
-129.9167341031
 10
359.9529617649
 20
-129.6594635449
  0
ARC
  5
CB
330
1F
100
AcDbEntity
  8
0
  6
Continuous
 62
     7
370
    25
100
AcDbCircle
 10
352.0809986404
 20
-41.1829302054
 30
0.0
 40
69.64746759342508
100
AcDbArc
 50
180.0817486172
 51
188.0531942591
  0
ENDSEC
  0
SECTION
  2
OBJECTS
  0
DICTIONARY
  5
C
330
0
100
AcDbDictionary
281
     1
  3
ACAD_GROUP
350
D
  3
ACAD_LAYOUT
350
1A
  3
ACAD_MLINESTYLE
350
17
  3
ACAD_PLOTSETTINGS
350
19
  3
ACAD_PLOTSTYLENAME
350
E
  3
ACAD_SCALELIST
350
47
  0
DICTIONARY
  5
D
102
{ACAD_REACTORS
330
C
102
}
330
C
100
AcDbDictionary
281
     1
  0
DICTIONARY
  5
1A
102
{ACAD_REACTORS
330
C
102
}
330
C
100
AcDbDictionary
281
     1
  3
Layout1
350
1E
  3
Layout2
350
26
  3
Model
350
22
  0
DICTIONARY
  5
17
102
{ACAD_REACTORS
330
C
102
}
330
C
100
AcDbDictionary
281
     1
  3
Standard
350
18
  0
DICTIONARY
  5
19
102
{ACAD_REACTORS
330
C
102
}
330
C
100
AcDbDictionary
281
     1
  0
ACDBDICTIONARYWDFLT
  5
E
102
{ACAD_REACTORS
330
C
102
}
330
C
100
AcDbDictionary
281
     1
  3
Normal
350
F
100
AcDbDictionaryWithDefault
340
F
  0
DICTIONARY
  5
47
102
{ACAD_REACTORS
330
C
102
}
330
C
100
AcDbDictionary
281
     1
  3
A0
350
48
  3
A1
350
49
  3
A2
350
4A
  3
A3
350
4B
  3
A4
350
4C
  3
A5
350
4D
  3
A6
350
4E
  3
A7
350
4F
  3
A8
350
50
  3
A9
350
51
  3
B0
350
52
  3
B1
350
53
  3
B2
350
54
  3
B3
350
55
  3
B4
350
56
  3
B5
350
57
  3
B6
350
58
  3
B7
350
59
  3
B8
350
5A
  3
B9
350
5B
  3
C0
350
5C
  3
C1
350
5D
  3
C2
350
5E
  3
C3
350
5F
  3
C4
350
60
  3
C5
350
61
  3
C6
350
62
  3
C7
350
63
  3
C8
350
64
  3
C9
350
65
  3
D0
350
66
  3
D1
350
67
  3
D2
350
68
  0
LAYOUT
  5
1E
102
{ACAD_REACTORS
330
1A
102
}
330
1A
100
AcDbPlotSettings
  1

  2
none_device
  4

  6

 40
0.0
 41
0.0
 42
0.0
 43
0.0
 44
0.0
 45
0.0
 46
0.0
 47
0.0
 48
0.0
 49
0.0
140
0.0
141
0.0
142
1.0
143
1.0
 70
   688
 72
     1
 73
     0
 74
     5
  7

 75
    16
147
1.0
148
0.0
149
0.0
100
AcDbLayout
  1
Layout1
 70
     1
 71
     1
 10
0.0
 20
0.0
 11
420.0
 21
297.0
 12
0.0
 22
0.0
 32
0.0
 14
1.0000000000E+20
 24
1.0000000000E+20
 34
1.0000000000E+20
 15
-1.0000000000E+20
 25
-1.0000000000E+20
 35
-1.0000000000E+20
146
0.0
 13
0.0
 23
0.0
 33
0.0
 16
1.0
 26
0.0
 36
0.0
 17
0.0
 27
1.0
 37
0.0
 76
     0
330
1B
  0
LAYOUT
  5
26
102
{ACAD_REACTORS
330
1A
102
}
330
1A
100
AcDbPlotSettings
  1

  2
none_device
  4

  6

 40
0.0
 41
0.0
 42
0.0
 43
0.0
 44
0.0
 45
0.0
 46
0.0
 47
0.0
 48
0.0
 49
0.0
140
0.0
141
0.0
142
1.0
143
1.0
 70
   688
 72
     1
 73
     0
 74
     5
  7

 75
    16
147
1.0
148
0.0
149
0.0
100
AcDbLayout
  1
Layout2
 70
     1
 71
     2
 10
0.0
 20
0.0
 11
0.0
 21
0.0
 12
0.0
 22
0.0
 32
0.0
 14
0.0
 24
0.0
 34
0.0
 15
0.0
 25
0.0
 35
0.0
146
0.0
 13
0.0
 23
0.0
 33
0.0
 16
1.0
 26
0.0
 36
0.0
 17
0.0
 27
1.0
 37
0.0
 76
     0
330
23
  0
LAYOUT
  5
22
102
{ACAD_REACTORS
330
1A
102
}
330
1A
100
AcDbPlotSettings
  1

  2
none_device
  4
Letter_(8.50_x_11.00_Inches)
  6

 40
6.35
 41
6.35
 42
6.35000508
 43
6.35000508
 44
215.9
 45
279.4
 46
0.0
 47
0.0
 48
0.0
 49
0.0
140
0.0
141
0.0
142
1.0
143
1.0
 70
  1712
 72
     1
 73
     0
 74
     0
  7

 75
     0
147
1.0
148
0.0
149
0.0
100
AcDbLayout
  1
Model
 70
     1
 71
     0
 10
0.0
 20
0.0
 11
279.4
 21
215.9
 12
0.0
 22
0.0
 32
0.0
 14
0.0
 24
0.0
 34
0.0
 15
279.4
 25
215.9
 35
0.0
146
0.0
 13
0.0
 23
0.0
 33
0.0
 16
1.0
 26
0.0
 36
0.0
 17
0.0
 27
1.0
 37
0.0
 76
     0
330
1F
331
29
  0
MLINESTYLE
  5
18
102
{ACAD_REACTORS
330
17
102
}
330
17
100
AcDbMlineStyle
  2
Standard
 70
     0
  3

 62
   256
 51
90.0
 52
90.0
 71
     2
 49
0.5
 62
   256
  6
BYLAYER
 49
-0.5
 62
   256
  6
BYLAYER
  0
ACDBPLACEHOLDER
  5
F
102
{ACAD_REACTORS
330
E
102
}
330
E
  0
SCALE
  5
48
102
{ACAD_REACTORS
330
47
102
}
330
47
100
AcDbScale
 70
     0
300
1:1
140
1.0
141
1.0
290
     1
  0
SCALE
  5
49
102
{ACAD_REACTORS
330
47
102
}
330
47
100
AcDbScale
 70
     0
300
1:2
140
1.0
141
2.0
290
     0
  0
SCALE
  5
4A
102
{ACAD_REACTORS
330
47
102
}
330
47
100
AcDbScale
 70
     0
300
1:4
140
1.0
141
4.0
290
     0
  0
SCALE
  5
4B
102
{ACAD_REACTORS
330
47
102
}
330
47
100
AcDbScale
 70
     0
300
1:5
140
1.0
141
5.0
290
     0
  0
SCALE
  5
4C
102
{ACAD_REACTORS
330
47
102
}
330
47
100
AcDbScale
 70
     0
300
1:8
140
1.0
141
8.0
290
     0
  0
SCALE
  5
4D
102
{ACAD_REACTORS
330
47
102
}
330
47
100
AcDbScale
 70
     0
300
1:10
140
1.0
141
10.0
290
     0
  0
SCALE
  5
4E
102
{ACAD_REACTORS
330
47
102
}
330
47
100
AcDbScale
 70
     0
300
1:16
140
1.0
141
16.0
290
     0
  0
SCALE
  5
4F
102
{ACAD_REACTORS
330
47
102
}
330
47
100
AcDbScale
 70
     0
300
1:20
140
1.0
141
20.0
290
     0
  0
SCALE
  5
50
102
{ACAD_REACTORS
330
47
102
}
330
47
100
AcDbScale
 70
     0
300
1:30
140
1.0
141
30.0
290
     0
  0
SCALE
  5
51
102
{ACAD_REACTORS
330
47
102
}
330
47
100
AcDbScale
 70
     0
300
1:40
140
1.0
141
40.0
290
     0
  0
SCALE
  5
52
102
{ACAD_REACTORS
330
47
102
}
330
47
100
AcDbScale
 70
     0
300
1:50
140
1.0
141
50.0
290
     0
  0
SCALE
  5
53
102
{ACAD_REACTORS
330
47
102
}
330
47
100
AcDbScale
 70
     0
300
1:100
140
1.0
141
100.0
290
     0
  0
SCALE
  5
54
102
{ACAD_REACTORS
330
47
102
}
330
47
100
AcDbScale
 70
     0
300
2:1
140
2.0
141
1.0
290
     0
  0
SCALE
  5
55
102
{ACAD_REACTORS
330
47
102
}
330
47
100
AcDbScale
 70
     0
300
4:1
140
4.0
141
1.0
290
     0
  0
SCALE
  5
56
102
{ACAD_REACTORS
330
47
102
}
330
47
100
AcDbScale
 70
     0
300
8:1
140
8.0
141
1.0
290
     0
  0
SCALE
  5
57
102
{ACAD_REACTORS
330
47
102
}
330
47
100
AcDbScale
 70
     0
300
10:1
140
10.0
141
1.0
290
     0
  0
SCALE
  5
58
102
{ACAD_REACTORS
330
47
102
}
330
47
100
AcDbScale
 70
     0
300
100:1
140
100.0
141
1.0
290
     0
  0
SCALE
  5
59
102
{ACAD_REACTORS
330
47
102
}
330
47
100
AcDbScale
 70
     0
300
1/128" = 1'-0"
140
0.0078125
141
12.0
290
     0
  0
SCALE
  5
5A
102
{ACAD_REACTORS
330
47
102
}
330
47
100
AcDbScale
 70
     0
300
1/64" = 1'-0"
140
0.015625
141
12.0
290
     0
  0
SCALE
  5
5B
102
{ACAD_REACTORS
330
47
102
}
330
47
100
AcDbScale
 70
     0
300
1/32" = 1'-0"
140
0.03125
141
12.0
290
     0
  0
SCALE
  5
5C
102
{ACAD_REACTORS
330
47
102
}
330
47
100
AcDbScale
 70
     0
300
1/16" = 1'-0"
140
0.0625
141
12.0
290
     0
  0
SCALE
  5
5D
102
{ACAD_REACTORS
330
47
102
}
330
47
100
AcDbScale
 70
     0
300
3/32" = 1'-0"
140
0.09375
141
12.0
290
     0
  0
SCALE
  5
5E
102
{ACAD_REACTORS
330
47
102
}
330
47
100
AcDbScale
 70
     0
300
1/8" = 1'-0"
140
0.125
141
12.0
290
     0
  0
SCALE
  5
5F
102
{ACAD_REACTORS
330
47
102
}
330
47
100
AcDbScale
 70
     0
300
3/16" = 1'-0"
140
0.1875
141
12.0
290
     0
  0
SCALE
  5
60
102
{ACAD_REACTORS
330
47
102
}
330
47
100
AcDbScale
 70
     0
300
1/4" = 1'-0"
140
0.25
141
12.0
290
     0
  0
SCALE
  5
61
102
{ACAD_REACTORS
330
47
102
}
330
47
100
AcDbScale
 70
     0
300
3/8" = 1'-0"
140
0.375
141
12.0
290
     0
  0
SCALE
  5
62
102
{ACAD_REACTORS
330
47
102
}
330
47
100
AcDbScale
 70
     0
300
1/2" = 1'-0"
140
0.5
141
12.0
290
     0
  0
SCALE
  5
63
102
{ACAD_REACTORS
330
47
102
}
330
47
100
AcDbScale
 70
     0
300
3/4" = 1'-0"
140
0.75
141
12.0
290
     0
  0
SCALE
  5
64
102
{ACAD_REACTORS
330
47
102
}
330
47
100
AcDbScale
 70
     0
300
1" = 1'-0"
140
1.0
141
12.0
290
     0
  0
SCALE
  5
65
102
{ACAD_REACTORS
330
47
102
}
330
47
100
AcDbScale
 70
     0
300
1-1/2" = 1'-0"
140
1.5
141
12.0
290
     0
  0
SCALE
  5
66
102
{ACAD_REACTORS
330
47
102
}
330
47
100
AcDbScale
 70
     0
300
3" = 1'-0"
140
3.0
141
12.0
290
     0
  0
SCALE
  5
67
102
{ACAD_REACTORS
330
47
102
}
330
47
100
AcDbScale
 70
     0
300
6" = 1'-0"
140
6.0
141
12.0
290
     0
  0
SCALE
  5
68
102
{ACAD_REACTORS
330
47
102
}
330
47
100
AcDbScale
 70
     0
300
1'-0" = 1'-0"
140
12.0
141
12.0
290
     0
  0
ENDSEC
  0
EOF
